Jika kamu nyariin kunci chord gitar untuk lagu Decima, kamu berada di halaman yang tepat.
Kamu bisa mainin Decima yang dinyanyiin oleh Katatonia pake gitar yang kamu suka.

Chord lagu Decima punya ritme dan masuk dalam album The Fall of Hearts (2016).
Di website ini, kamu juga bisa dapetin chord lain, seperti chord lagu jazz, chord lagu country, pop, rock, dll.

Chord Gitar Decima oleh Katatonia

x2


c |------------------------|-----------------7p0--|---------------5-----|------------------------|
G |------------5-----------|--------5-------------|-------------5---3~--|------------------------|
D#|------------5p(4)--4-5--|----4--------(4)------|-----0h2-------------|------------------------|
A#|--7--5h7----------------|--5---5----(5)--------|--3~-----(3)---------|-----7----------9--(5)--|
F |--0~----(0)-------------|----------------------|---------------------|--5-----5/7h10----------|
C |------------------------|----------------------|---------------------|------------------------|
[Verse 1]

x3


c |------------------------|-----------------7p0--|---------------5-----|------------------------|
G |------------5-----------|--------5-------------|-------------5---3~--|------------------------|
D#|------------5p(4)--4-5--|----4--------(4)------|-----0h2-------------|------------------------|
A#|--7--5h7----------------|--5---5----(5)--------|--3~-----(3)---------|-----7----------9--(5)--|
F |--0~----(0)-------------|----------------------|---------------------|--5-----5/7h10----------|
C |------------------------|----------------------|---------------------|------------------------|
c |------------------------|-----------------7p0--|---------------5-----|------------------------|
G |------------5-----------|--------5-------------|-------------5---3~--|------------------------|
D#|------------5p(4)--4-5--|----4--------(4)------|-----0h2-------------|------------------------|
A#|--7--5h7----------------|--5---5----(5)--------|--3~-----(3)---------|-----7------9--------10-|
F |--0~----(0)-------------|----------------------|---------------------|--5-----5/7----10~---8--|
C |------------------------|----------------------|---------------------|------------------------|
Born under a troubled sign.

Am (see note) Am C
Will it hurt to see me find,

Em G D5 Am (see note)
the long lost peace of mind?

Darling, you had me here for a while.

Am (see note) Am C
It breaks my heart to see you cry.

Em G D5 Am (see note)
In the wake of incomplete time.

Darkness overthrows!

[Verse 2]

x4


c |------------------------|-----------------7p0--|---------------5-----|------------------------|
G |------------5-----------|--------5-------------|-------------5---3~--|------------------------|
D#|------------5p(4)--4-5--|----4--------(4)------|-----0h2-------------|------------------------|
A#|--7--5h7----------------|--5---5----(5)--------|--3~-----(3)---------|-----7----------9--(5)--|
F |--0~----(0)-------------|----------------------|---------------------|--5-----5/7h10----------|
C |------------------------|----------------------|---------------------|------------------------|
[Verse 2 Guitar 2 parts] [1:59]

c |--------------------------------|
G |---13~--13h15~--12h13--12--10---|
D#|--------------------------------|
A#|--------------------------------|
F |--------------------------------|
C |--------------------------------|
[2:09]

c |--------------------------12--13-----------|
G |----------13--15--12--13----------12-------|
D#|--(12)/14-----------------------------14~--|
A#|-------------------------------------------|
F |-------------------------------------------|
C |-------------------------------------------|
[2:18]

c |------------------------|
G |----------10--12~-------|
D#|--(9)/10-----------9~---|
A#|------------------------|
F |------------------------|
C |------------------------|
[2:30]

c |---------------------------------|
G |---------------------------------|
D#|--10~--9~--10~-------------------|
A#|----------------(12)/14--12--10--|
F |---------------------------------|
C |---------------------------------|
[Interlude – 2:36 to 3:55]


c |-------------------|----------------------------|----------------------------------|
G |-------------------|----------------------------|--------10--12--13----------------|
D#|-----5--7/9--7--9--|---------7~---10--9-9-9-10--|------9------------9h10--9--(4)--|
A#|--7----------------|--7--10---------------------|--/10-----------------------------|
F |--0~---------------|----------------------------|----------------------------------|
C |-------------------|----------------------------|----------------------------------|

x4


c |------------------------------------|--------------------|
G |-----------------------------------o|--------------------|
D#|------------------------------------|--------------------|
A#|-/12--10--9~-----2--5--7--4--54----|--7---9---/12---10--|
F |--------------2--0--3--5--2--32---o|--5---7---/10---8---|
C |--------------0---------------------|--------------------|
Born under a troubled sign.

Am (see note) Am C
Will it hurt to see me find,

Em G D5 Am (see note)
the long lost peace of mind?

Darling, you had me here for a while.

Am (see note) Am C
It breaks my heart to see you cry.

Em G D5 Am (see note) Am
In the wake of incomplete time.

Jika kamu pingin belajar mainin lagunya Katatonia, termasuk chord gitar Decima.
Kamu bisa belajar dengan mengikuti kursus, masuk sekolah musik, datengin guru untuk les privat bahkan bisa juga dengan cara otodidak.
Untuk dasarnya kamu bisa belajar C major, A major, G major, E major, and D major. Selain kunci tadi, nanti bisa dimodif dikit.

Jangan lupa selalu latihan untuk mainin gitar lagu Decima. Awal-awal mungkin susah, semoga setelah terbiasa, nanti kamu bisa menguasai semua lagu Katatonia