Jika kamu nyariin kunci chord gitar untuk lagu El diablo, kamu berada di halaman yang tepat.
Kamu bisa mainin El diablo yang dinyanyiin oleh Fobia pake gitar yang kamu suka.

Chord lagu El diablo punya ritme dan masuk dalam album Mundo feliz (1992).
Di website ini, kamu juga bisa dapetin chord lain, seperti chord lagu jazz, chord lagu country, pop, rock, dll.

Chord Gitar El diablo oleh Fobia

Esta es una super rola algo vieja pero lo bueno nunk pasa de moda o no?

Al principio hablan unas tipas rarar y lokas:

No tires tanto de la cuerda,
porque a muchas mujeres les gustaria
que Fernando se ocupara de ellas
VETE AL DIABLO!!’

(aqui se escucha el grito y comienza la bateria)

Intro


e|--------12--------12--------12----12-12-|
B|------12--------12--------12------12-12-|
G|--9-9-------9-9-------9-9-------9-------|~~~~~ x 3 veces
D|----------------------------------------|
A|----------------------------------------|
E|----------------------------------------|
e|---10----11----12-----13-----14-----15-|
B|---10----11----12-----13-----14-----15-|
G|-7-----8-----9-----11-----12-----13----|(tocando rapidamente)
D|---------------------------------------|
A|---------------------------------------|
E|---------------------------------------|

RIFF 1


e|---------3---------3------------------|
B|-----(3)-3-----(3)-3-----9~~~~~~~-----|
G|------4--4------4--4-----9--9-9-9-9-7-|
D|------5---------5------9----7-7-7---7-|
A|--5-5-------5-5--------7--------------|
E|--3-3-------3-3-----------------------|

RIFF 2


e|---------10-------10-------10-9-|
B|-8-8-7-7-8--8-7-7-8--8-7-7-8--8-|
G|-7-7-7-7-7--7-7-7-7--7-7-7-7--7-|
D|--------------------------------|
A|--------------------------------|
E|--------------------------------|

RIFF 3


e|--------------------------------|
B|-----5-5-5-5-5-5-5--------------|
G|--6^7-7-6-6-4-4-3-3-2-----------|
D|--------------------------------|
A|--------------------------------|
E|--------------------------------|

Final


e|----18b(19)-------------------|
B|------------------------------|
G|---------------13b(15)13b(14--| con vibrato
D|------------------------------|
A|------------------------------|
E|------------------------------|

ESTOS SON LOS ACORDES:

( Tab from: http://www.guitartabs.cc/tabs/f/fobia/el_diablo_tab.html )


e|--3-- e|--7-- e|--5-- e|--5--|
B|--3-- B|--8-- B|--7-- B|--5--|
G|--4-- G|--9-- G|--7-- G|--6--|
D|--5-- D|--9-- D|--7-- D|--7--|
A|--5-- A|--7-- A|--5-- A|--7--|
E|--3-- E|--7-- E|--5-- E|--5--|

En donde este la indicacin del acorde tocar el
riff correspondiente:

Donde este la indicacin:
G Em hay que tocar el riff 1
Donde este la indicacin:
D hay que tocar el riff 2

No tires tanto de la cuerda,
porque a muchas mujeres les gustaria
que Fernando se ocupara de ellas
VETE AL DIABLO!!’

(aqui se escucha el grito y comienza la bateria)

INTRO

Mujer, mujer…
el diablo te viene a ver,
trae en el pecho un clavel,
trae en la mano un coctelpara ti, para tiMujer, mujer….
el diablo est aqu en la puerta
porque no te haces la muerta
porque no bailas can-can,para mi, para mi

A D A (riff 3)
Si preguntan por ti,

que voy a decir

que voy a inventar

A D A(riff 3)
Cuando no ests aqu,

que voy a decir,

tendr que fingir.

Mujer, mujer
no se porque decidiste,
el diablo va a estar muy triste,
va a estar cuidando de ti
para mi, para mi para mi

A D A (riff 3)
Si preguntan por ti,

que voy a decir

que voy a inventar

A D A(riff 3)
Cuando no ests aqu,

que voy a decir,

tendr que fingir.

A D A (riff 3)
Si preguntan por ti,

que voy a decir

que voy a inventar

A D A(riff 3)
Cuando no ests aqu,

que voy a decir,

tendr que mentir.

intro

Em (tcala improvisando pero q suene bien es raro pero es as eso creo)

final

Si encuentran errores o necesitan algo escribanme a [email protected]

Jika kamu pingin belajar mainin lagunya Fobia, termasuk chord gitar El diablo.
Kamu bisa belajar dengan mengikuti kursus, masuk sekolah musik, datengin guru untuk les privat bahkan bisa juga dengan cara otodidak.
Untuk dasarnya kamu bisa belajar C major, A major, G major, E major, and D major. Selain kunci tadi, nanti bisa dimodif dikit.

Jangan lupa selalu latihan untuk mainin gitar lagu El diablo. Awal-awal mungkin susah, semoga setelah terbiasa, nanti kamu bisa menguasai semua lagu Fobia

Categorized in: