Jika kamu nyariin kunci chord gitar untuk lagu Les Yankees, kamu berada di halaman yang tepat.
Kamu bisa mainin Les Yankees yang dinyanyiin oleh Richard Desjardins pake gitar yang kamu suka.

Chord lagu Les Yankees punya ritme dan masuk dalam album Les Derniers Humains (1988).
Di website ini, kamu juga bisa dapetin chord lain, seperti chord lagu jazz, chord lagu country, pop, rock, dll.

Chord Gitar Les Yankees oleh Richard Desjardins

http://www.richarddesjardins.com/
https://secure.wikimedia.org/wikipedia/en/wiki/Richard_Desjardins

Taken from: Partitions101

INTRO (jouer 2 fois)


e:0-3-----3-----.3-2-----2-----.2-0-----0-----.0---------2---.|
B:------0---0---.------0---0---.------0---0---.-------0-----0.|
G:------------0-.------------0-.------------0-.--------------.|
D:--2-----------.--2-----------.--2-----------.2-------------.|
A:--------------.--------------.--------------.--------------.|
E:--------------.--------------.--------------.--------------.|
e:--3-----3-----.3-2-----2h3p2-.0-0-----0-----.0-0--0--0--0--.|
B:------0---0---.------0-------.----------0---.---0--0--0--0-.|
G:------------0-.--------------.------0-----0-.----0--0--0---.|
D:--2-----------.--2-----------.--2-----------.--------------.|
A:--------------.--------------.--------------.--------------.|
E:--------------.--------------.--------------.--0----2----3-.|
e:--3-----3-----.3-2-----2-----.2-3-----3-----.3-2-----2-----.|
B:------0---0---.------0---0---.------0---0---.------0---0---.|
G:------------0-.------------0-.------------0-.------------0-.|
D:--2-----------.--------------.--2-----------.--------------.|
A:--------------.--3-----------.--------------.--3-----------.|
E:--------------.--------------.--------------.--------------.|

laisser sonner…


e:2-0-----0-----.0-2-----2-----.2-3-----3-----.--------------.|
B:------0---0---.------0---0---.------0---0---.--------------.|
G:------------0-.------------0-.------------0-.-----0--------.|
D:--2-----------.--------------.--2-----------.---4---4------.|
A:--------------.--3-----------.--------------.-2-------2----.|
E:--------------.--------------.--------------.-----------0--.|
e:----0-----0---.----0-----0---.--------------.--------------.|
B:-------0------.-------0------.--------------.--------------.|
G:--0-----------.--0-----------.--------------.--------------.|
D:--------------.--------------.--------------.--------------.|
A:--------------.--------------.--------------.--------------.|
E:0-------------.0-------------.--------------.--------------.|

COUPLET 1


e:--------------.--------------.--------------.--------------.|
B:----0------0--.----0------0--.----0------0--.----0------0--.|
G:--0------0----.--0------0----.--0------0----.--0------0----.|
D:2------2------.2------2------.2------2------.2------2------.|
A:--------------.--------------.--------------.--------------.|
E:--------------.--------------.--------------.--------------.|

La nuit… Les chevres…


e:--------------.--------------.--------------.--------------.|
B:----0------0--.----0------0--.----0------0--.----0------0--.|
G:--0------0----.--0------0----.--0------0----.--0------0----.|
D:2------2------.2------2------.2------2------.2------2------.|
A:--------------.--------------.--------------.--------------.|
E:--------------.--------------.--------------.--------------.|

Nous allions… Et nous…


e:--------------.--------------.--------------.--------------.|
B:----0------0--.----0------0--.----0------0--.----0------0--.|
G:--0------0----.--0------0----.--0------0----.--0------0----.|
D:2------2------.2------2------.--------------.--------------.|
A:--------------.--------------.--------------.--------------.|
E:--------------.--------------.0------0------.0-----30------.|

malgre le fret… barbords.


e:--------------.--------------.--------------.--------------.|
B:----0------0--.----0------0--.----0------0--.----0---------.|
G:--0------0----.--0------0----.--0------0----.--0-----------.|
D:--------------.--------------.--------------.--------------.|
A:--------------.--------------.--------------.--------------.|
E:0------0------.0-----30------.0------0------.0-------------.|
e:--------------.--------------.--------------.--------------.|
B:----0------0--.----0------0--.----0------0--.----0------0--.|
G:--0------0----.--0------0----.--0------0----.--0------0----.|
D:2------2------.2------2------.2------2------.2------2------.|
A:--------------.--------------.--------------.--------------.|
E:--------------.--------------.--------------.--------------.|

Nous savions… A grand…


e:--------------.--------------.--------------.--------------.|
B:----0------0--.----0------0--.----0------0--.----0------0--.|
G:--0------0----.--0------0----.--0------0----.--0------0----.|
D:2------2------.2------2------.--------------.--------------.|
A:--------------.--------------.--------------.--------------.|
E:--------------.--------------.0------0------.0-----30------.|

Pour… de bord…


e:--------------.--------------.--------------.--------------.|
B:----0------0--.--------------.--------------.--------------.|
G:--0------0----.--------------.--------------.--------------.|
D:--------------.--------------.--------------.--------------.|
A:--------------.--------------.0-----2---3---.--------------.|
E:0------0------.0-----2---3---.--------------.--------------.|

Nous les der niers hu mains de la


e:----3------3--.----3------3--.----2------2--.----2------2--.|
B:--0------0----.--0------0----.--0------0----.--0------0----.|
G:--------------.--------------.--------------.--------------.|
D:2------2------.2------2------.--------------.--------------.|
A:--------------.--------------.3------3------.3------3------.|
E:--------------.--------------.--------------.--------------.|

Te_________rre


e:----2------2--.--------------.0-------------.--------------.|
B:--0------0----.--------------.0-------------.--------------.|
G:--------------.--------------.2---------2---.0-------------.|
D:--------------.--------------.3---------3---.2-------------.|
A:3------3------.--------------.3---------3---.2-------------.|
E:--------------.--------------.0---------0---.0-------------.|
e:--------------.--------------.----1----0----.--------------.|
B:3-----3-----3-.----3-----3---.--0-----------.----4------4--.|
G:--1-----1-----.1-----1-----1-.--------------.--0------0----.|
D:----2-----2---.--2-----2-----.2-------------.--------------.|
A:2-------------.--------------.--------------.2------2------.|
E:--------------.--------------.--------------.--------------.|

(siffle)

COUPLET 2


e:----0------0--.----0---2--3--.----0------0--.----0---------.|
B:--------------.--------2--3--.--------------.-----------3--.|
G:--1------1----.--1-----------.--1------1----.--1------1----.|
D:--------------.--------------.--------------.--------------.|
A:2------2------.2-------------.2------2------.2-------------.|
E:--------------.--------------.--------------.-------0------.|

Le vieux… Amis,…


e:-----------0--.----0---------.----0------0--.-----------1--.|
B:----3---------.--------------.--------------.----3----0----.|
G:--1------1----.--1-----------.--1------1----.--1-----------.|
D:--------------.--------------.--------------.-------2------.|
A:-------2------.2-------------.2------2------.2-------------.|
E:0-------------.-------0------.--------------.--------------.|

guet. Allez dor-


e:0-------------.--------------.--2-----2-----.2-4-----4-----.|
B:--------------.--------------.------2---2---.------2---2---.|
G:--------------.--------------.------------2-.------------2-.|
D:--------------.--------------.--------------.--------------.|
A:--------------.--------------.--------------.--------------.|
E:--------------.--------------.--2-----------.--2-----------.|

mez en paix


e:4-5-----5-----.5-----5-------.5-2-----2-----.2-4-----4-----.|
B:------2---2---.----2---2-----.------2---2---.------2---2---.|
G:------------2-.----------2---.------------2-.------------2-.|
D:--------------.--------------.--------------.--------------.|
A:--------------.--------------.--------------.--------------.|
E:--2-----------.2-------------.--2-----------.--2-----------.|
e:4-5-----5-----.5-5-----5-----.5-----5-----5-.5-4-----4-----.|
B:------2---2---.------2---2---.--2-----2-----.------4---4---.|
G:------------2-.------------2-.----2-----2---.------------4-.|
D:--------------.--------------.--------------.--------------.|
A:--------------.--------------.--------------.--------------.|
E:--2-----------.--2-----------.--------------.--4-----------.|
e:4-6-----6-----.6-7-----7-----.7-7-----7-----.7-----7-----7-.|
B:------4---4---.------4---4---.------4---4---.--4-----4-----.|
G:------------4-.------------4-.------------4-.----4-----4---.|
D:--------------.--------------.--------------.--------------.|
A:--------------.--------------.--------------.--------------.|
E:--4-----------.--4-----------.--4-----------.--------------.|
e:--2-----2-----.2-4-----4-----.4-5-----5-----.5-----5-----5-.|
B:------2---2---.------2---2---.------2---2---.--2-----2-----.|
G:------------2-.------------2-.------------2-.----2-----2---.|
D:--------------.--------------.--------------.--------------.|
A:--------------.--------------.--------------.--------------.|
E:--2-----------.--2-----------.--2-----------.--------------.|
e:0-6-----------.6-7-----7-----.7-6-----6-----.7-7-----7-----.|
B:--------------.------4---4---.------4---4---.------4---4---.|
G:--------------.------------4-.------------4-.------------4-.|
D:--------------.--------------.--------------.--------------.|
A:--7-----------.--------------.--7-----------.--------------.|
E:--4-----------.--4-----------.--4-----------.--4-----------.|
e:------7-------.9--------11---.----15--------.12-15---------.|
B:----4--------6.-------9------.--12----------.------11-14---.|
G:--4--------6--.-----9--------.12------------.------------12.|
D:6--------8----.---11-------14.--------------.--------------.|
A:--------------.--------------.--------------.--------------.|
E:--------------.--------------.--------------.--------------.|
e:--------------.--------------.--------------.--------------.|
B:--------------.--------------.--------------.----0------0--.|
G:-15-----------.--------------.--------------.--0------0----.|
D:----11-14-----.------12------.11h12p11------.--------------.|
A:--------------.12h14---------.--------------.--------------.|
E:--------------.--------------.--------------.0------0------.|
e:--------------.--------------.--------------.--------------.|
B:----0------0--.----0-----0---.----0-----0---.----0------0--.|
G:--0------0----.--0-----0-----.--0-----0-----.--0------0----.|
D:--------------.--------------.--------------.--------------.|
A:--------------.--------------.--------------.--------------.|
E:0-----30------.0-----0-----0-.0-----0-----0-.0------0------.|
e:--------------.--------------.--------------.--------------.|
B:----0------0--.----0-----0---.----0-----0---.---0------0---.|
G:--0------0----.--0-----0-----.--0-----0-----.-0----0-------.|
D:--------------.--------------.--------------.--------------.|
A:--------------.--------------.--------------.--------------.|
E:0-----30------.0-----0-----0-.0-----0-----0-.--------------.|

REFRAIN


e:0-3-----3-----.3-2-----2-----.2-0-----2-----.0---------2---.|
B:------0---0---.------0---0---.------0---0---.-------0-----0.|
G:------------0-.------------0-.------------0-.--------------.|
D:--2-----------.--2-----------.--2-----------.2-------------.|
A:--------------.--------------.--------------.--------------.|
E:--------------.--------------.--------------.--------------.|

Ce n’est…


e:--3-----3-----.3-2-----2h3h2-.0-0-----0-----.0-0---0---0---.|
B:------0---0---.------0-------.----------0---.---0---0---0--.|
G:------------0-.--------------.------0-----0-.----0---0---0-.|
D:--2-----------.--2-----------.--2-----------.--------------.|
A:--------------.--------------.--------------.--------------.|
E:--------------.--------------.--------------.--0---2---3---.|

La Mais… Ga-

( Tab from: http://www.guitartabs.cc/tabs/r/richard_desjardins/les_yankees_tab.html )


e:--3-----3-----.3-2-----2-----.2-3-----3-----.3-2-----2-----.|
B:------0---0---.------0---0---.------0---0---.------0---0---.|
G:------------0-.------------0-.------------0-.------------0-.|
D:--2-----------.--------------.--2-----------.--------------.|
A:--------------.--3-----------.--------------.--3-----------.|
E:--------------.--------------.--------------.--------------.|

lop


e:2-0-----0-----.0-2-----2-----.2-3-----3-----.--------------.|
B:------0---0---.------0---0---.------0---0---.--------------.|
G:------------0-.------------0-.------------0-.-----0--------.|
D:--2-----------.--------------.--------------.---4---4------.|
A:--------------.--2-----------.--2-----------.-2-------2----.|
E:--------------.--------------.--------------.-----------0--.|

du milier… Ghe-


e:-----0-----0--.----0---------.0-3-----3-----.3-2-----2-----.|
B:--------------.--------------.------0---0---.------0---0---.|
G:--0------0----.--0-----------.------------0-.------------0-.|
D:--------------.--------------.--2-----------.--2-----------.|
A:--------------.--------------.--------------.--------------.|
E:0------0------.0------0------.--------------.--------------.|

tto. Et tout…


e:2-0-----0-----.0---------2---.--3-----3-----.3-2-----2h3p2-.|
B:------0---0---.-------0-----0.------0---0---.------0-------.|
G:------------0-.--------------.------------0-.--------------.|
D:--2-----------.2-------------.--2-----------.--2-----------.|
A:--------------.--------------.--------------.--------------.|
E:--------------.--------------.--------------.--------------.|
e:2-0-----0-----.0-0---0---0---.--3-----3-----.3-2-----2-----.|
B:------0---0---.---0---0---0--.------0---0---.------0---0---.|
G:------------0-.----0---0---0-.------------0-.------------0-.|
D:--2-----------.--------------.--2-----------.--------------.|
A:--------------.--------------.--------------.--3-----------.|
E:--------------.--0---2---3---.--------------.--------------.|

Re- veillez-vous…


e:2-3-----3-----.3-2-----2-----.2-0-----2-----.0-2-----2-----.|
B:------0---0---.------0---0---.------0---0---.------0---0---.|
G:------------0-.------------0-.------------0-.------------0-.|
D:--2-----------.--------------.--2-----------.--------------.|
A:--------------.--3-----------.--------------.--3-----------.|
E:--------------.--------------.--------------.--------------.|

Oh v’la… V’la…


e:2-3-----3-----.--------------.----0------0--.----0---------.|
B:------0---0---.--------------.--------------.--------------.|
G:------------0-.-----0--------.--0------0----.--0-----------.|
D:--2-----------.---4---4------.--------------.--------------.|
A:--------------.-2-------2----.--------------.--------------.|
E:--------------.-----------0--.0------0------.0------0------.|

Easy come Easy Go V’la les gringo_____s

COUPLET 3


e:--------------.--------------.--------------.--------------.|
B:----0------0--.----0------0--.----0------0--.----0------0--.|
G:--0------0----.--0------0----.--0------0----.--0------0----.|
D:2------2------.2------2------.2------2------.2------2------.|
A:--------------.--------------.--------------.--------------.|
E:--------------.--------------.--------------.--------------.|

Ils debarquerent… Ils disposairent…


e:--------------.--------------.--------------.--------------.|
B:----0------0--.----0------0--.----0---------.----0------0--.|
G:--0------0----.--0------0----.--0-----------.--0------0----.|
D:2------2------.2------2------.2-------------.2-------------.|
A:--------------.--------------.--------------.--------------.|
E:--------------.--------------.--------------.-------0-----3.|

L’un… prend le megaphone.


e:--------------.--------------.--------------.--------------.|
B:----0---------.--------------.----0------0--.----0------0--.|
G:--0---0-------.--------------.--0------0----.--0------0----.|
D:--------------.--------------.2------2------.2------2------.|
A:--------------.--------------.--------------.--------------.|
E:0-------0-----.--------------.--------------.--------------.|

Nous venons… porte…


e:--------------.--------------.--------------.--------------.|
B:----0------0--.----0------0--.----0------0--.----0------0--.|
G:--0------0----.--0------0----.--0------0----.--0------0----.|
D:2------2------.2------2------.2------2------.2------2------.|
A:--------------.--------------.--------------.--------------.|
E:--------------.--------------.--------------.--------------.|

Son laser… Nous avons…


e:--------------.--------------.--------------.--------------.|
B:----0------0--.----0------3--.----3------3--.----3------3--.|
G:--0------0----.--0------2----.--2------2----.--2------2----.|
D:2------2------.2------0------.0------0------.0------0------.|
A:--------------.--------------.--------------.--------------.|
E:--------------.--------------.--------------.--------------.|

Jusqu’a… Gala- xies. Le


e:--------------.--------------.--------------.--------------.|
B:----3------3--.----3------3--.----3------3--.----3------3--.|
G:--2------2----.--2------2----.--2------2----.--2------2----.|
D:0------0------.0------0------.0------0------.0------0------.|
A:--------------.--------------.--------------.--------------.|
E:--------------.--------------.--------------.--------------.|

president… de pacifier… Nous venons


e:--------------.--------------.--------------.--------------.|
B:----3------0--.----0------0--.----0------0--.----0------0--.|
G:--2------0----.--0------0----.--0------0----.--0------0----.|
D:0------2------.2------2------.2------2------.2------2------.|
A:--------------.--------------.--------------.--------------.|
E:--------------.--------------.--------------.--------------.|

en amis. Believe me. Maintena


e:--------------.--------------.--------------.--------------.|
B:----0------0--.----0------0--.----0------0--.----0------0--.|
G:--0------0----.--0------0----.--0------0----.--0------0----.|
D:2------2------.2------2------.2------2------.2------2------.|
A:--------------.--------------.--------------.--------------.|
E:--------------.--------------.--------------.--------------.|

nt… Et signez… Car…


e:--------------.--------------.--------------.--------------.|
B:----0------0--.----0------0--.----0------3--.----3------3--.|
G:--0------0----.--0------0----.--0------2----.--2------2----.|
D:2------2------.2------2------.2------0------.0------0------.|
A:--------------.--------------.--------------.--------------.|
E:--------------.--------------.--------------.--------------.|

Nous… la Virginie.


e:--------------.--------------.--------------.--------------.|
B:----3------3--.----3------3--.----3------3--.----3------3--.|
G:--2------2----.--2------2----.--2------2----.--2------2----.|
D:0------0------.0------0------.0------0------.0------0------.|
A:--------------.--------------.--------------.--------------.|
E:--------------.--------------.--------------.--------------.|

Oh v’la… v’la… Easy Come Easy


e:--------------.--------------.--------------.--------------.|
B:----3------3--.----3------0--.--------0-----.--------------.|
G:--2------2----.--2------0----.0-----0---0---.--------------.|
D:0------0------.0-------------.--------------.--------------.|
A:--------------.--------------.--------------.--------------.|
E:--------------.-------0------.---0---------0.--------------.|

Go vla les gringos.


e:6p5-----------.5p4-----------.------4p3-----.------3p2-----.|
B:5-------------.4-------------.------3-------.------2-------.|
G:--------------.--------------.--------------.--------------.|
D:--------------.--------------.--------------.--------------.|
A:--------------.--------------.--------------.--------------.|
E:--------------.--------------.--------------.--------------.|

Alors… Nos soldats… L’opium… appart-


e:------2p1-----.--------------.--------------.--------------.|
B:------1-------.------6p5-----.--------------.--------------.|
G:--------------.------4-------.--------------.--------------.|
D:--------------.--------------.--------------.--------------.|
A:--------------.--------------.--------------.--------------.|
E:--------------.--------------.--------------.--------------.|

aient bien… news…


e:--------------.--------------.--------------.1---0---------.|
B:--------------.---0-0----0-0-.----0------0--.--------------.|
G:--------------.--0-0----0-0--.--0------0----.--------------.|
D:--------------.--------------.--------------.2-------------.|
A:--------------.--------------.--------------.--------------.|
E:--------------.0------0------.0------0------.--------------.|

se le-ve Et… se le-

(14 fois) (9 fois) (9 fois ) (9 fois)


e:5-------------.5-------------.5-------------.5-------------.|
B:5--5>x--5-5-5-.6--6>x--6-6-6-.5--5>x--5-5-5-.6--6>x--6-6-6-.|
G:5--5>x--5-5-5-.7--7>x--7-7-7-.5--5>x--5-5-5-.7--7>x--7-7-7-.|
D:7--7>x--7-7-5-.7--7>x--7-7-7-.7--7>x--7-5-5-.7--7>x--7-7-7-.|
A:7--7>x--------.5--5>x--------.7--7>x--------.5--5>x--------.|
E:5-------------.5-------------.5-------------.5-------------.|


e:-5-5-5-5-5-5-5.-5-5-5-5-5-5--.0------------.--------------.-|
B:-6-6-6-6-6-6-6.-5-5-5-5-5-5--.2------------.---2-----2----.-|
G:-7-7-7-7-7-7-7.-7-7-7-7-7-7--.2------------.--2-----2-----.-|
D:-7-7-7-7-7-7-7.-7-7-7-7-7-7--.1------------.-1-----1------.-|
A:-5-5-5-5-5-5-5.-5-5-5-5-5-5--.0------------.0-----0-------.0|
E:--------------.--------------.0------------.--------------.-|

Oh gringo tu…


e:--------------.--------------.--------------.--------------.|
B:--2------2----.--------------.--------------.3------3------.|
G:-2------2-----.--------------.--------------.--1------1----.|
D:1------1------.0--2--3-----0-.--------------.----2------2--.|
A:------0-------.---------2----.-0--2---------.2-------------.|
E:--------------.--------------.-------0------.--------------.|

Ca f l -t que je t’ ttends. Oh gringo…


e:--------------.0-------------.--------------.--------------.|
B:3------3------.1-------------.1------1------.1------1------.|
G:--1------1----.2-------------.--2------2----.--2------2----.|
D:----2------2--.2-------------.----2------2--.----2------2--.|
A:--------------.0-------------.0-------------.--------------.|
E:--------------.--------------.--------------.--------------.|

Vas t’en. Allez…

OUTRO


e:--------------.--------------.--------------.--------------.|
B:----0------0--.----0------0--.----0------0--.----0------0--.|
G:--0------0----.--0------0----.--0------0----.--0------0----.|
D:2------2------.2------2------.2------2------.2------2------.|
A:--------------.--------------.--------------.--------------.|
E:--------------.--------------.--------------.--------------.|

La nuit… Les chevres…


e:--------------.--------------.--------------.--------------.|
B:----0------0--.----0------0--.----0------0--.----0------0--.|
G:--0------0----.--0------0----.--0------0----.--0------0----.|
D:2------2------.2------2------.2------2------.2------2------.|
A:--------------.--------------.--------------.--------------.|
E:--------------.--------------.--------------.--------------.|

Nous allions… Et nous…

laisser sonner…


e:--------------.--------------.--------------.---4----------.|
B:----0------0--.----0------0--.--------------.--2-----------.|
G:--0------0----.--0------0----.--------------.-2------------.|
D:2------2------.2------2------.--------------.--------------.|
A:--------------.--------------.--------------.0-------------.|
E:--------------.--------------.--------------.--------------.|

malgre le fret… barbords

Jika kamu pingin belajar mainin lagunya Richard Desjardins, termasuk chord gitar Les Yankees.
Kamu bisa belajar dengan mengikuti kursus, masuk sekolah musik, datengin guru untuk les privat bahkan bisa juga dengan cara otodidak.
Untuk dasarnya kamu bisa belajar C major, A major, G major, E major, and D major. Selain kunci tadi, nanti bisa dimodif dikit.

Jangan lupa selalu latihan untuk mainin gitar lagu Les Yankees. Awal-awal mungkin susah, semoga setelah terbiasa, nanti kamu bisa menguasai semua lagu Richard Desjardins