Jika kamu nyariin kunci chord gitar untuk lagu The Aftermath, kamu berada di halaman yang tepat.
Kamu bisa mainin The Aftermath yang dinyanyiin oleh Kashmir pake gitar yang kamu suka.

Chord lagu The Aftermath punya ritme dan masuk dalam album Zitilites (2003).
Di website ini, kamu juga bisa dapetin chord lain, seperti chord lagu jazz, chord lagu country, pop, rock, dll.

Chord Gitar The Aftermath oleh Kashmir

THE AFTERMATH (guitar-tabulatur)

Spilles med Capo i 3. bånd.

VERS

[Bb/d]


e--6-----6---6-- -g- -6-----5---6------6---6-----3---5----
h--3-----4---3-- -e- -3-----6---4------4---3-----4---6----
g--3-----3---3-- -n- -3-----5---3------3---3-----5---5----
d--3-----5---3-- -t- -5-----3---5------5---3-----5---3----
a--5-----6---5-- -a- -5---------6------6---5-----3--------
e--6---------6-- -g- -3-----------------------------------

I´m wondering…


e--6-----6---6-- -g- -6-----5---6-------5-----5-----3-----5-------5--------
h--3-----4---3-- -e- -3-----6---4-------6-----6-----3-----6-------4--------
g--3-----3---3-- -n- -3-----5---3-------7-----5-----3-----5-------5--------
d--3-----5---3-- -t- -5-----3---5-------7-----5-----5-----3-------3--------
a--5-----6---5-- -a- -5---------6-------5-----3-----5----------------------
e--6---------6-- -g- -3-----------------------------3----------------------

for us to journey…

OMKV?D


e--6----------5-----------6-------6------5------6------3--
h--6----------6-----------6-------3------6------6------4--
g--3----------7-----------3-------3------5------5------5--
d--3----------7-----------5-------5------3------3------5--
a--5----------5-----------6-------5--------------------3--
e--6------------------------------3-----------------------

Get a hold of yourself…


e--6----------5-----------6-------6----------3-----3--------3-----5-------
h--6----------6-----------6-------3----------4-----3--------3-----6-------
g--3----------7-----------3-------3----------5-----3--------3-----5-------
d--3----------7-----------5-------5----------5-----5--------5-----3-------
a--5----------5-----------6-------5----------3-----6--------5-------------
e--6------------------------------3-------------------------3-------------

there is no one after…


e--3-----3-----3-----3---------3-----5-----3-----3--------
h--4-----4-----4-----3---------3-----6-----4-----4--------
g--5-----3-----5-----3---------3-----5-----5-----3--------
d--5-----5-----5-----5---------5-----3-----5-----5--------
a--3-----6-----3-----6---------5-----------3-----6--------
e------------------------------3--------------------------

….you… There is…..

OUTRO


e--6-----6---6--
h--3-----4---3--
g--3-----3---3--
d--3-----5---3--
a--5-----6---5--
e--6---------6--

I think it´s somthing like that, but if it´s not then please send me an
Good luck!!!!!

Jika kamu pingin belajar mainin lagunya Kashmir, termasuk chord gitar The Aftermath.
Kamu bisa belajar dengan mengikuti kursus, masuk sekolah musik, datengin guru untuk les privat bahkan bisa juga dengan cara otodidak.
Untuk dasarnya kamu bisa belajar C major, A major, G major, E major, and D major. Selain kunci tadi, nanti bisa dimodif dikit.

Jangan lupa selalu latihan untuk mainin gitar lagu The Aftermath. Awal-awal mungkin susah, semoga setelah terbiasa, nanti kamu bisa menguasai semua lagu Kashmir